Fight For Your Right To Party | Beastie Boys


<< Go Back

This is a great song from the Beastie Boys. We play this song in the key of “E”, and the guitar chart and lyric sheet we use for open mic night and live performances are available below for your reference. If you prefer to use different guitar tabs or chord charts, we can accomodate any variations.


Intro
   (E5) A
   A C D (6x)

Verse
   A C D A C D A5(pm) (4x)
   A C D A (TACET)

Chorus
  A D (2x)
  A C D (2x)

Bridge
  A C D
  E G (3x)
  E

Solo
  A C D (7x)
  A5(pm)

Outro
  A C D (4x)
  A

-----
*INTRO*

Yeah
Kick it!

You wake up late for school man you don't wanna go
You ask your mum please but she still says "NO!"
You missed two classes have no homework
Your teachers preaches class like it some kind of jerk

You gotta fight
For your right
To party

Your pop caught you smoking and he said "NO WAY!"
That old hypocrite smoke two packs a day
Man, living at home is such a drag
Now, your mum threw away your best porno-mag

You gotta fight
For your right
To party

*BRIDGE*

You gotta fight

*SOLO*

Get out of this house if that's the clothes you gonna wear
I'll kick you out of this house if you don't cut that hair
Your mama busted in and said "What's that noise?"
Oh, mama you're just jealous it's the beastieboys

You gotta fight
For your right
To party

You gotta fight
For your right
To party

*BRIDGE*

PARTY!
PARTY!

---------------

Solo
e--15--15--15b16--15--12------------------------------------------------------
B-------------------------15--14b16--14--15-----------------------------------
G----------------------------------------------------13--13-16b18r16--14------
D--------------------------------------------12--14---------------------------
A-----------------------------------------------------------------------------
E-----------------------------------------------------------------------------

e--16b17--16--14--12b13r12--14--16--17--
B---------------------------------------
G---------------------------------------
D---------------------------------------
A---------------------------------------
E---------------------------------------


Related Topics:


<< Go Back