Dominated Love Slave | Green Day


<< Go Back

This is a great song from Green Day. We play this song in the key of “E”, and the guitar chart and lyric sheet we use for open mic night and live performances are available below for your reference. If you prefer to use different guitar tabs or chord charts, we can accomodate any variations.


E			    A
I wanna be your dominated love slave
E				 B
I wanna be the one who takes the pain
E				A
You can spank me when I do not behave
E		B	E
Mack me in the forehead with a chain

Chorus:

A		    E
'Cause I love feelin' dirty
         B             E
and I love feelin' cheap
A		         E
And I love it when you hurt me
     B		        E
So drive those staples deep

Verse:

E			 	A 
I want you to slap me and call me naughty
E			B
Put a beltsander into my skin
E			A
I want to feel pain all over my body
E	    B		E
I can't wait to be punished for my sins

Chorus:

Solo:
e ------------------------3-
B ------8---9---9-----2------
G ------9---9---9--------------
D-------9---9---9--------------
A ------7---7---7--------------
E --0--------------0----------

repeat solo riff 3 times then move up a fret, as below:

e ----------------------------4
B---------9---10---10-----3----
G--------10---10---10-----------
D--------10---10---10----------
A---------9----9----9-----------
E-----0----------------0-------

Then final chorus......

I love it when you hurt me
     B		        E
So drive those staples deep


Related Topics:


<< Go Back